number 1

(/) Slide Up  (\) Slide Down  (h) Hammer On  (p) Pull Off  (b) Bend (r) Release (v) Vibrato


E|----------------------------------------------------------------------------------------
B|--------3-----------------------3-----0-----------------0-----3-----------------3r0-----
G|--0--------0-----------0-----0-----0-----0-----0-----0-----0-----0-----0-----0-------0--
D|-----4--------4-----4-----------------------4-----------------------4-----2-------------
A|-----------------5--------3-----------------------5-------------------------------------
E|----------------------------------------------------------------------------------------



E|--------------------------------------
B|--------------------------------------
G|-----0-----0--------0--2h4r2r0-----0--
D|--2-----2--------2--------------2-----
A|--------------3-----------------------
E|--------------------------------------
http://www.guitartabcreator.com
Guitar Tab Creator is intended to store guitar tab created through the tool. It currently does not support in-line text editing. Any text you place in here will be lost. If you need to comment on your tab, please use the "Tab Notes" section located below.