LZ

(/) Slide Up  (\) Slide Down  (h) Hammer On  (p) Pull Off  (b) Bend (r) Release (v) Vibrato


E|--6/9--9--7--5--2------------------------------------------------------------------------
B|-------------------3--2----2--------------------------------------------------------2----
G|----------------------4/6--6--5--4--2-----4--3--2--4--3--2--4--3--4--3--2--4--3--2--4/6--
D|---------------------------------------4-------------------------------------------------
A|-----------------------------------------------------------------------------------------
E|-----------------------------------------------------------------------------------------



E|--------------------------------------------------------------------------------------
B|-----------------------------------2--3--3--3--3--3--3--3--3--2--2--2--2--2--2--2--2--
G|--4--3--2-----4--2--4--3--2-----4--2--2--2--2--2--2--2--2--2--2--2--2--2--2--2--2--2--
D|-----------4--2--4-----------4--2--4--------------------------------------------------
A|--------------------------------------------------------------------------------------
E|--------------------------------------------------------------------------------------



E|-------------------------------------
B|--------------2----3--3-----2--2-----
G|-----------2--4/6--2--2--2--2--2--2--
D|--4--4--6----------------------------
A|-------------------------------------
E|-------------------------------------
http://www.guitartabcreator.com
Guitar Tab Creator is intended to store guitar tab created through the tool. It currently does not support in-line text editing. Any text you place in here will be lost. If you need to comment on your tab, please use the "Tab Notes" section located below.