good

(/) Slide Up  (\) Slide Down  (h) Hammer On  (p) Pull Off  (b) Bend (r) Release (v) Vibrato


E|-----------------------------------------------------------------------------
B|-----4h5r4--------------------4h5r4--------4-----------4h5r4-----------------
G|------------6-----4------------------6-----------4------------6-----4--------
D|--4------------6-----6--4--4------------6-----6-----4------------6-----6--4--
A|-----------------------------------------------------------------------------
E|-----------------------------------------------------------------------------



E|-----------------------------------------------------------------------------------
B|-----------------------------------------------------------------------------------
G|-----4h6r4----------4-----------4h6r4----------4-----------4h6h8--6r4-----4--------
D|------------6h4-----------8------------6r4-----------8--6-----------------------8--
A|--7--------------6-----4-----7--------------6-----4--------------------7-----4-----
E|-----------------------------------------------------------------------------------



E|--
B|--
G|--
D|--
A|--
E|--
http://www.guitartabcreator.com
Guitar Tab Creator is intended to store guitar tab created through the tool. It currently does not support in-line text editing. Any text you place in here will be lost. If you need to comment on your tab, please use the "Tab Notes" section located below.