capo 4

(/) Slide Up  (\) Slide Down  (h) Hammer On  (p) Pull Off  (b) Bend (r) Release (v) Vibrato


E|--------------0---------------------------------------------------------------------------
B|-----3-----3--------------------0h1/3r0-----------------0h1r0--------0h1r0----------------
G|-----4--4--------2--2/4\2r0--0--0--------2--2/4\2r0-----0------0-----0---------0----------
D|-----5-----------0--0--------2-----------0--0--------2------------2---------2-----2--2r0--
A|-----------------------------3-----------------------0------------3---------------2--2----
E|--3---------------------------------------------------------------------------------------



E|--------------------------
B|--------------------------
G|--------------------------
D|--2--2r0------------------
A|--3--3----3--2--2/3/5--7--
E|-------------0--0------3--
http://www.guitartabcreator.com
Guitar Tab Creator is intended to store guitar tab created through the tool. It currently does not support in-line text editing. Any text you place in here will be lost. If you need to comment on your tab, please use the "Tab Notes" section located below.