A minor pentatonic

(/) Slide Up  (\) Slide Down  (h) Hammer On  (p) Pull Off  (b) Bend (r) Release (v) Vibrato


E|--------------------------------0--3----------------------------------3--5-----
B|--------------------------1--3----------------------------------3--5-----------
G|--------------------0--2----------------------------------2--5-----------------
D|--------------0--2----------------------------------2--5-----------------------
A|--------0--3----------------------------------3--5-----------------------------
E|--0--3----------------------------------3--5-----------------------------------



E|--------------------------------5--8--------------------------------------8--10--
B|--------------------------5--8-------------------------------------8--10---------
G|--------------------5--7-------------------------------------7--9----------------
D|--------------5--7------------------------------------7--10----------------------
A|--------5--7-----------------------------------7--10-----------------------------
E|--5--8----------------------------------8--10------------------------------------



E|-----------------------------------------10--12--
B|---------------------------------10--13----------
G|--------------------------9--12------------------
D|------------------10--12-------------------------
A|----------10--12---------------------------------
E|--10--12-----------------------------------------
http://www.guitartabcreator.com
Guitar Tab Creator is intended to store guitar tab created through the tool. It currently does not support in-line text editing. Any text you place in here will be lost. If you need to comment on your tab, please use the "Tab Notes" section located below.