my first music peace

(/) Slide Up  (\) Slide Down  (h) Hammer On  (p) Pull Off  (b) Bend (r) Release (v) Vibrato
t: W WW W WW W W W W W W W WW WW WW WW WW WW
E|--8--10--8--------------------------15--15--15--8---8---8---
B|------------10--8-------------------17--17--17--10--10--10--
G|-------------------9--7--9----------------------------------
D|----------------------------7--7b7--------------------------
A|------------------------------------------------------------
E|------------------------------------------------------------



E|--10--------------------17b20b20--17--20--17---------------------
B|--10------------13--15------------------------20--17-------------
G|--9---9--12b12----------------------------------------19--17b12--
D|-----------------------------------------------------------------
A|-----------------------------------------------------------------
E|-----------------------------------------------------------------



E|--7--7--7--7--7--7--7--
B|--7--7--9--9--9--9--9--
G|--7--7--9--9--8--8--8--
D|-----------------------
A|-----------------------
E|-----------------------



E|--
B|--
G|--
D|--
A|--
E|--
http://www.guitartabcreator.com
Guitar Tab Creator is intended to store guitar tab created through the tool. It currently does not support in-line text editing. Any text you place in here will be lost. If you need to comment on your tab, please use the "Tab Notes" section located below.