It is well 2 open D

(/) Slide Up  (\) Slide Down  (h) Hammer On  (p) Pull Off  (b) Bend (r) Release (v) Vibrato


E|-----------------------------------------------------------------
B|-----------------------------------------------------------------
G|-----------------------------------------------------------------
D|--0--0--0--0--0--0--0--0--0-----------------------5--5--3--5--5--
A|-----------------------------0--3--2--2--2--3--3-----------------
E|-----------------------------------------------------------------



E|-----------------------------------------------------------
B|-----------------------------------------------------------
G|-----------------------------------------------------------
D|--0--0--------------------2--0--------0--5--3--2--2--1-----
A|--------3--2--2--0--2--3--------3--2--------------------3--
E|-----------------------------------------------------------



E|-----------------------------------------------
B|-----------------------------------------------
G|-----------------------------------------------
D|--0--0--0--5--3--5--2--2--2--7--5--7--3--------
A|-----------------------------------------5--3--
E|-----------------------------------------------



E|-----------------------
B|-----------------------
G|-----------------------
D|--5--5--5--5--3--5--5--
A|-----------------------
E|-----------------------
http://www.guitartabcreator.com
Guitar Tab Creator is intended to store guitar tab created through the tool. It currently does not support in-line text editing. Any text you place in here will be lost. If you need to comment on your tab, please use the "Tab Notes" section located below.