It is well

(/) Slide Up  (\) Slide Down  (h) Hammer On  (p) Pull Off  (b) Bend (r) Release (v) Vibrato


E|------------------------------------------------------------
B|------------------------------------------------------------
G|--5--9--12--------------5--5--5\10--10--10--12--12--12--12--
D|------------------5--5--------------------------------------
A|------------------------------------------------------------
E|------------------------------------------------------------



E|------------------------------------------------------------------------
B|------------------------------------------------------------------------
G|--5v--5v--5v--5v--\9\12/10/9--7--------5----5---------------------------
D|---------------------------------5--5----------7--9--10--10--12--12--5--
A|------------------------------------------------------------------------
E|------------------------------------------------------------------------
http://www.guitartabcreator.com
Guitar Tab Creator is intended to store guitar tab created through the tool. It currently does not support in-line text editing. Any text you place in here will be lost. If you need to comment on your tab, please use the "Tab Notes" section located below.