Rock N' Roll Solo 1

(/) Slide Up  (\) Slide Down  (h) Hammer On  (p) Pull Off  (b) Bend (r) Release (v) Vibrato


E|---------------------------------------------12--15b17\15p12--12v--
B|-------------------------------------12--15------------------------
G|--14b16\14p12------12--14b16\14--12--------------------------------
D|---------------14--------------------------------------------------
A|-------------------------------------------------------------------
E|-------------------------------------------------------------------



E|--12--15------12--15------12--15------12--15------12--15b17\15--12v--12v--
B|--------------------------------------------------------------------------
G|----------15----------15----------15----------15--------------------------
D|--------------------------------------------------------------------------
A|--------------------------------------------------------------------------
E|--------------------------------------------------------------------------



E|--------------------------------------------------------------12--15b17\15p12--
B|--15--12---------15-----------------------------------12--15-------------------
G|----------14b16------16\14p12v------12--14b16\14p12v---------------------------
D|--------------------------------14---------------------------------------------
A|-------------------------------------------------------------------------------
E|-------------------------------------------------------------------------------



E|--15--17--17b19\17p15--
B|-----------------------
G|-----------------------
D|-----------------------
A|-----------------------
E|-----------------------
http://www.guitartabcreator.com
Guitar Tab Creator is intended to store guitar tab created through the tool. It currently does not support in-line text editing. Any text you place in here will be lost. If you need to comment on your tab, please use the "Tab Notes" section located below.