Song Tab

(/) Slide Up  (\) Slide Down  (h) Hammer On  (p) Pull Off  (b) Bend (r) Release (v) Vibrato


E|-----------------------------------------------------------------------------0-
B|-----0h1-----1p0-----0h1-----1p0---------------------------------------------0-
G|---------------------------------------3-----0-----2-----------3-----0-----2-0-
D|---2-------2-------2-------2-------2-----2-----2-----2-----2-----2-----2-----2-
A|-3-------3-------3-------3-------2---2-----2-----2-----2-2---2-----2-----2---2-
E|-----------------------------------------------------------------------------0-



E|--------------------------------------------
B|-----0h1-----1p0-----0h1-----1/3----------7-
G|-------------------------------4----------8-
D|---2-------2-------2-------2---5----------9-
A|-3-------3-------3-------3-----5----------9-
E|--------------------------------------------
http://www.guitartabcreator.com
Guitar Tab Creator is intended to store guitar tab created through the tool. It currently does not support in-line text editing. Any text you place in here will be lost. If you need to comment on your tab, please use the "Tab Notes" section located below.