Demo

(/) Slide Up  (\) Slide Down  (h) Hammer On  (p) Pull Off  (b) Bend (r) Release (v) Vibrato
E|--------------------------------------------------------------------------
B|--------------------------------------------------------------------------
G|--------4-----4-----------4-----4-----------4-----4-----------4-----4-----
D|-----4-----4-----4-----4-----4-----4-----4-----4-----4-----4-----4-----4--
A|--2-----------------------------------------------------------------------
E|--------------------2-----------------4-----------------0-----------------



E|---------------------------------------------------------------|-
B|---------------------------------------------------------------|-
G|-4-4-4-4-4-4-4-4-----------------------------------------------|-
D|-4-4-4-4-4-4-4-4-4-4-4-4-4-4-4-6-6-6-6-6-6-6-6-2-2-2-2-2-2-2-2-|-
A|-2-2-2-2-2-2-2-2-4-4-4-4-4-4-4-6-6-6-6-6-6-6-6-2-2-2-2-2-2-2-2-|-
E|-----------------2-2-2-2-2-2-2-4-4-4-4-4-4-4-4-0-0-0-0-0-0-0-0-|-



E|-------------------------------------------------------------------------|-
B|-------------------------------------------------------------------------|-
G|-4-4-4-4-4-4-4-4-8-8-8-8-8-8-8-8-6-6-6-6-6-6-6-6-11-11-11-11-11-11-11-11-|-
D|-------------------------------------------------------------------------|-
A|-2-2-2-2-2-2-2-2-6-6-6-6-6-6-6-6-4-4-4-4-4-4-4-4-9--9--9--9--9--9--9--9--|-
E|-------------------------------------------------------------------------|-
http://www.guitartabcreator.com
Guitar Tab Creator is intended to store guitar tab created through the tool. It currently does not support in-line text editing. Any text you place in here will be lost. If you need to comment on your tab, please use the "Tab Notes" section located below.