Pokemon_Gold/Silver_Champion_Theme

(/) Slide Up  (\) Slide Down  (h) Hammer On  (p) Pull Off  (b) Bend (r) Release (v) Vibrato


E|-----------------------------------------------------------------------------------------
B|-----------------------------------------------------------------------------------------
G|---------------------------------------------------------------6-------------------------
D|---------------------------8-----------------9-----------------------8-----9-----8-------
A|-6-6-6-6-5-6-6-6-6-6-6-6-6---6-6-6-6-6-6-6-6---6-6-6-6-6-6-6-6---6-6---6-6---6-6---6-6-5-
E|-----------------------------------------------------------------------------------------



E|-----------------------------------------------------------------------------------------
B|-----------------------------------------------------------------------------------------
G|-----------------------------------------------------------------------------------------
D|-----8-----9-----8-----------8-----9-----8-----------8-----9-----11-----12-13-14---------
A|-6-6---6-6---6-6---6-6-5-6-6---6-6---6-6---6-6-5-6-6---6-6---6-6----6-6------------------
E|-----------------------------------------------------------------------------------------



E|-----------------------------------------------------------------------------------------
B|-----------------------------------------------------------------------------------------
G|-------------------------9-----9-----7-----------------------9-13-9-16-------------------
D|-13-8--13-12-11-10-9-8-9---9-9---9-9---13-8--13-12-11-10-9-8-----------------------------
A|------------------------------------------------------------------------6-6-6-6-6-6-6-7--
E|-----------------------------------------------------------------------------------------



E|------------------------------------------------------------------------------------------
B|------------------------------------------------------------------------------------------
G|------------------------------------------------------------------------------------------
D|------------------------------13-12-11-10--13-12-11-10-9-9---13-12-11-10--13-12-11-10-9-9-
A|-6-6-6-6-6-6-6-9--6-4-2-4-6---------------------------------------------------------------
E|------------------------------------------------------------------------------------------



E|----------------------------------------------------------------------------------------
B|----------------------------------------------------------------------------------------
G|----------------------------------------------------------------------------------------
D|---9-8-6--------8-----9-----8-----7-----8-----9-----11-----12-13-14-16-14-13-14-16--18--
A|-6----------6-6---6-6---6-6---6-6---6-6---6-6---6-6----6-6------------------------------
E|----------------------------------------------------------------------------------------
http://www.guitartabcreator.com
Guitar Tab Creator is intended to store guitar tab created through the tool. It currently does not support in-line text editing. Any text you place in here will be lost. If you need to comment on your tab, please use the "Tab Notes" section located below.