Guitar Medley: BlackSabbath/Pokemon/StarWars/BonJovi/LinkinPark

(/) Slide Up  (\) Slide Down  (h) Hammer On  (p) Pull Off  (b) Bend (r) Release (v) Vibrato


E|-------------------------------------------------------------------------------------------
B|-------------------------------------------------------------------------------------------
G|-------------------------------------------------------------------------------------------
D|---------7--7--9--9--12-11/12-11/12-11--7--9--9-----------------------------------------8--
A|------9--5--5--7--7--10/9--10/9--10/9---5--7--7--6--6--6--6--5--6--6--6--6--6--6--6--6-----
E|--0b0b7------------------------------------------------------------------------------------



E|--------------------------------------------------------------------------------------------
B|--------------------------------------------------------------------------------------------
G|-----------------------------------------------------6--------------------------------------
D|--------------------------9-----------------------------------8--------9--------8-----------
A|--6--6--6--6--6--6--6--6-----6--6--6--6--6--6--6--6-----6--6-----6--6-----6--6-----6--6--5--
E|--------------------------------------------------------------------------------------------



E|--------------------------------------------------------------------------------------------
B|--------------------------------------------------------------------------------------------
G|--------------------------------------------------------------------------------------------
D|--------8--------9--------8-----------------8--------9--------8-----------------8--------9--
A|--6--6-----6--6-----6--6-----6--6--5--6--6-----6--6-----6--6-----6--6--5--6--6-----6--6-----
E|--------------------------------------------------------------------------------------------



E|--------------------------------------------------------------------------------------------
B|--------------------------------------------------------------------------------------------
G|--------------------------------------------------------------------------------------------
D|--------11--------12--13--12--11--10--13--12--11--10--9--9--13--12--11--10--13--12--11--10--
A|--6--6------6--6----------------------------------------------------------------------------
E|--------------------------------------------------------------------------------------------



E|-------------------------------------------------------------------------------------------
B|-------------------------------------------------------------------------------------------
G|-------------------------------------------------------------------------------------------
D|--9--9-----------------------------------------------------------------13--12--11--10--13--
A|--------6--6--6--6--6--6--6--7--6--6--6--6--6--6--6--9--6--4--2--4--6----------------------
E|--------------------------------------------------------6--4--2--4--6----------------------



E|------------------------------------------------------------------------------------------
B|------------------------------------------------------------------------------------------
G|------------------------------------------------------------------------------------------
D|--12--11--10--9--9--13--12--11--10--13--12--11--10--9--9--10--10--5--5--5-----8--5-----8--
A|---------------------------------------------------------------------------6--------6-----
E|------------------------------------------------------------------------------------------



E|--------------------------------------------------------------------------------------------
B|--------------------------------8--------8--7--6--5--4--5-----------------------------------
G|-----7--7--7--8-----------------------------------------------------------------------------
D|--5--------------8--4-----8--5-----5--5--------------------6--5--4--3--2--3-----4-----8--5--
A|-----------------------6-----------------------------------------------------6-----6--------
E|--------------------------------------------------------------------------------------------



E|--------------------------------8--5--3--2--2--2--2--3--0--0--0h2--2--0-----2--2-----------
B|-----------------------8--5--6-------------------------------------------3--------5--3--0--
G|--------------8--5--6----------------------------------------------------------------------
D|-----8--5--6-------------------------------------------------------------------------------
A|--6----------------------------------------------------------------------------------------
E|-------------------------------------------------------------------------------------------



E|-----------2--0-----0--2--0--------------2--0-----0--2--0--------2--0-----0--2--0--------
B|--0--3--0--------3-----------3--0-----0--------3-----------3--0--------3-----------3--0--
G|-----------------------------------2-----------------------------------------------------
D|-----------------------------------------------------------------------------------------
A|-----------------------------------------------------------------------------------------
E|-----------------------------------------------------------------------------------------



E|--------2--0-----------------------------------------------------14--17--16--16--16--16--16--
B|-----0-----------------------------------------------14--17--14------------------------------
G|--2------------------------------------------------------------------------------------------
D|--------------------------0--0-----------------0--0------------------------------------------
A|--------------2-----0--2--------2--2-----0--2------------------------------------------------
E|-----------------0--------------------0------------------------------------------------------
http://www.guitartabcreator.com
Guitar Tab Creator is intended to store guitar tab created through the tool. It currently does not support in-line text editing. Any text you place in here will be lost. If you need to comment on your tab, please use the "Tab Notes" section located below.