The Time Has Come Intro (Key-A)

(/) Slide Up  (\) Slide Down  (h) Hammer On  (p) Pull Off  (b) Bend (r) Release (v) Vibrato
E|-------------------------------------------------------------------------------------------------
B|-10-10-10-10-10-10-10-10-10-10-10-10-10-10-10-10-10-10-10-10-10-10-10-10-10-10-10-10-10-10-10-10-
G|-------------------------------------------------------------------------------------------------
D|-------------------------------------------------------------------------------------------------
A|-------------------------------------------------------------------------------------------------
E|-------------------------------------------------------------------------------------------------



E|-------------------------------------------------------------------------------
B|-12-12-14-14---9-9-9-9-9-9-9-9-9-10-10-12-12---7-7-7-7-7-7-7-7-7-10-10-9-9-----
G|---------------------------------------------------------------------------9-9-
D|-------------------------------------------------------------------------------
A|-------------------------------------------------------------------------------
E|-------------------------------------------------------------------------------



E|-------------------------------------------------------------------------------------------------
B|-10-10-10-10-10-10-10-10-10-10-10-10-10-10-10-10-10-10-10-10-10-10-10-10-10-10-10-10-10-10-10-10-
G|-------------------------------------------------------------------------------------------------
D|-------------------------------------------------------------------------------------------------
A|-------------------------------------------------------------------------------------------------
E|-------------------------------------------------------------------------------------------------



E|---------------------------------------------------------------------------------------
B|-12-12-14-14---9-9-9-9-9-9-9-9-9-10-10-12-12---7-7-7-7-7-7-7-7-7-10-10-9-9-------------
G|---------------------------------------------------------------------------9-9---------
D|---------------------------------------------------------------------------------------
A|---------------------------------------------------------------------------------------
E|---------------------------------------------------------------------------------------



E|--------------------------------------------------------------
B|-10-10-10-10-10-10-10-10-10-10-10-12b-9-9-9-9-9-9-9-9-9-9-----
G|--------------------------------------------------------------
D|--------------------------------------------------------------
A|--------------------------------------------------------------
E|--------------------------------------------------------------



E|---------------------------------------------------------------
B|-10-10-10-10-10-10-10-10-10-10-10-14-14-14-14-14-14-14-14-14---
G|---------------------------------------------------------------
D|---------------------------------------------------------------
A|---------------------------------------------------------------
E|---------------------------------------------------------------



E|------------------------------------------------------------
B|-10-10-10-10-10-10-10-10-10-10-10-12b-9-9-9-9-9-9-9-9-9-9-9-
G|------------------------------------------------------------
D|------------------------------------------------------------
A|------------------------------------------------------------
E|------------------------------------------------------------



E|----------------------------------------------------------------
B|-10-10-10-10-10-10-10-10-10-10-10-14-14-14-14-14-14-14-14-14-14-
G|----------------------------------------------------------------
D|----------------------------------------------------------------
A|----------------------------------------------------------------
E|----------------------------------------------------------------



E|----------------------------------------------------------------------
B|-15-15-15-15-15-15-15-15-15-15-15-15-12-12-12-12-12-12-12-12-12-12-12-
G|----------------------------------------------------------------------
D|----------------------------------------------------------------------
A|----------------------------------------------------------------------
E|----------------------------------------------------------------------



E|------------------------------------------------------------------------
B|-15-15-15-15-15-15-15-15-15-15-15-15-12-12-12-12-12-12-12-12-12-12-12---
G|------------------------------------------------------------------------
D|------------------------------------------------------------------------
A|------------------------------------------------------------------------
E|------------------------------------------------------------------------



E|-------------------------------------------------------------------------
B|-15-15-15-15-15-15-15-15-15-15-15-15-12-12-12-12-12-12-12-12-12-12-12-12-
G|-------------------------------------------------------------------------
D|-------------------------------------------------------------------------
A|-------------------------------------------------------------------------
E|-------------------------------------------------------------------------



E|---------------------------------------------------------------------------
B|-15-15-15-15-15-15-15-15-15-15-15-15-12-12-12-12-12-12-12-12-12-12-12-12---
G|---------------------------------------------------------------------------
D|---------------------------------------------------------------------------
A|---------------------------------------------------------------------------
E|---------------------------------------------------------------------------
http://www.guitartabcreator.com
Guitar Tab Creator is intended to store guitar tab created through the tool. It currently does not support in-line text editing. Any text you place in here will be lost. If you need to comment on your tab, please use the "Tab Notes" section located below.