My first song

(/) Slide Up  (\) Slide Down  (h) Hammer On  (p) Pull Off  (b) Bend (r) Release (v) Vibrato

My First Song (name and words in progress)

G G G2
E|--------------3--------------------------3--------------------------3-----------------
B|--------3--------3-----3-----------3--------3-----3-----------3--------3-----3--------
G|-----0-----0--------0-----0-----0-----0--------0-----0-----0-----0--------0-----0-----
D|--------------------------------------------------------------------------------------
A|--------------------------------------------------------3-----------------------------
E|--3--------------------------3--------------------------------------------------------


G2 C C2
E|--------------3--------------------------0--------------------------0--------------
B|--------3--------3-----3-----------1--------1-----1-----------0--------0-----0-----
G|-----0-----0--------0-----0-----0-----0--------0-----0-----0-----0--------0-----0--
D|-----------------------------------------------------------------------------------
A|--3--------------------------3--------------------------2--------------------------
E|-----------------------------------------------------------------------------------


C C2 D2
E|--------------0--------------------------0--------------------------0--------------
B|--------1--------1-----1-----------0--------0-----0-----------3--------3-----3-----
G|-----0-----0--------0-----0-----0-----0--------0-----0-----2-----2--------2-----2--
D|--------------------------------------------------------0--------------------------
A|--3--------------------------2-----------------------------------------------------
E|-----------------------------------------------------------------------------------

Chords
G G2 C C2 D2
E|-----3--3--0--0--0--
B|-----3--3--1--0--3--
G|-----0--0--0--0--2--
D|-----0--2--2--2--0--
A|-----2--3--3--3-----
E|-----3--------------
http://www.guitartabcreator.com
Guitar Tab Creator is intended to store guitar tab created through the tool. It currently does not support in-line text editing. Any text you place in here will be lost. If you need to comment on your tab, please use the "Tab Notes" section located below.