Projekti esimene laul

(/) Slide Up  (\) Slide Down  (h) Hammer On  (p) Pull Off  (b) Bend (r) Release (v) Vibrato
E|-----------0-----------------0-----------------0-----------------0-----------------0-----------
B|--------3-----3-----------3-----3-----------8-----8-----------8-----8-----------5-----5--------
G|-----5-----------5-----5-----------5-----5-----------5-----5-----------5-----2-----------2-----
D|--3-----------------3-----------------0-----------------0-----------------0--------------------
A|-----------------------------------------------------------------------------------------------
E|-----------------------------------------------------------------------------------------------



E|-----------0-----------7--------10--------7--------
B|--------5-----5-----------8---------8--------8-----
G|-----2-----------2-----------9---------9--------9--
D|--0-----------------0------------------------------
A|---------------------------------------------------
E|---------------------------------------------------



E|--7--------10--------7--5--3--------6--------3--5--
B|-----8---------8-----8--6-----4--------4-----4--6--
G|--------9---------9--9--7--------5--------5--5--7--
D|---------------------------------------------------
A|---------------------------------------------------
E|---------------------------------------------------



E|--------------------------------------------------------
B|--------------------------------------------------------
G|--------------------------------------------------------
D|----2----5----7-8----3----2----5----7----8----3---------
A|----2----5----7-8----3----2----5----7----8----3---------
E|----0----3----5/6----1----0----3----5----6----1---------



E|-------------------------13-16-19-21-19-
B|-12-11-12-14-15b15-12-15----------------
G|----------------------------------------
D|----------------------------------------
A|----------------------------------------
E|----------------------------------------



E|----12-------10-------7------------------------
B|----15b15----12b12----10b10----8---------------
G|------------------------------------9----7v----
D|-----------------------------------------------
A|-----------------------------------------------
E|-----------------------------------------------



E|-----------0-----------------0------------------0------------0----------0---------
B|--------6-----6-----------8-----8-----------10-----10-----------13---------12-----
G|-----3-----------3-----5-----------5-----7-------------7------------10---------9--
D|--0-----------------0-----------------0-------------------0-----------------------
A|----------------------------------------------------------------------------------
E|----------------------------------------------------------------------------------
http://www.guitartabcreator.com
Guitar Tab Creator is intended to store guitar tab created through the tool. It currently does not support in-line text editing. Any text you place in here will be lost. If you need to comment on your tab, please use the "Tab Notes" section located below.