will the wolf survive

(/) Slide Up  (\) Slide Down  (h) Hammer On  (p) Pull Off  (b) Bend (r) Release (v) Vibrato


E|--14--16--14--12--------------12------12--0--
B|------------------14--12--14------14------0--
G|------------------------------------------1--
D|------------------------------------------2--
A|------------------------------------------2--
E|------------------------------------------0--



E|--------------------------------0--
B|--------------------------------0--
G|--------------------------------1--
D|--4--6--4--2-----------2-----2--2--
A|--------------4--2--4-----4-----2--
E|--------------------------------0--
http://www.guitartabcreator.com
Guitar Tab Creator is intended to store guitar tab created through the tool. It currently does not support in-line text editing. Any text you place in here will be lost. If you need to comment on your tab, please use the "Tab Notes" section located below.