sweet child of mine first sixteenths

(/) Slide Up  (\) Slide Down  (h) Hammer On  (p) Pull Off  (b) Bend (r) Release (v) Vibrato

Stave 1:

E|------------------------------------------11----------11--12--14--11--12--
B|------------------------------12--13--12------12--13----------------------
G|----------11--12------11--14----------------------------------------------
D|--13--14----------14------------------------------------------------------
A|--------------------------------------------------------------------------
E|--------------------------------------------------------------------------

Stave 2:

E|--14--15--12--14--15--14--12------14p11--12h14p12------17---------
B|------------------------------15-------------------15------15b17--
G|------------------------------------------------------------------
D|------------------------------------------------------------------
A|------------------------------------------------------------------
E|------------------------------------------------------------------

http://www.guitartabcreator.com
Guitar Tab Creator is intended to store guitar tab created through the tool. It currently does not support in-line text editing. Any text you place in here will be lost. If you need to comment on your tab, please use the "Tab Notes" section located below.