sweeping practice song

(/) Slide Up  (\) Slide Down  (h) Hammer On  (p) Pull Off  (b) Bend (r) Release (v) Vibrato

E|--17--13----------------------13--17--13----------------------13--
B|----------15--------------15--------------15--------------15------
G|--------------14------14----------------------14------14----------
D|------------------15------------------------------15--------------
A|------------------------------------------------------------------
E|------------------------------------------------------------------



E|------------------------------------------------------------------
B|--17--14----------------------14--17--14----------------------14--
G|----------14--------------14--------------14--------------14------
D|--------------14------14----------------------14------14----------
A|------------------16------------------------------16--------------
E|------------------------------------------------------------------



E|--13--10----------------------10--13--10----------------------10--
B|----------11--------------11--------------11--------------11------
G|--------------12------12----------------------12------12----------
D|------------------13------------------------------13--------------
A|------------------------------------------------------------------
E|------------------------------------------------------------------



E|--10------------------------------10------------------------------
B|------11----------------------11------11----------------------11--
G|----------10--------------10--------------10--------------10------
D|--------------12------12----------------------12------12----------
A|------------------13------------------------------13--------------
E|------------------------------------------------------------------



E|--9----------------------------9----------------------------
B|-----10--------------------10-----10--------------------10--
G|---------9--------------9-------------9--------------9------
D|------------11------11-------------------11------11---------
A|----------------12---------------------------12-------------
E|------------------------------------------------------------



E|------
B|--11--
G|------
D|------
A|------
E|------
http://www.guitartabcreator.com
Guitar Tab Creator is intended to store guitar tab created through the tool. It currently does not support in-line text editing. Any text you place in here will be lost. If you need to comment on your tab, please use the "Tab Notes" section located below.