sweeping pattern practice

(/) Slide Up  (\) Slide Down  (h) Hammer On  (p) Pull Off  (b) Bend (r) Release (v) Vibrato

E|--17--13----------------------13--
B|----------15--------------15------
G|--------------14------14----------
D|------------------15--------------
A|----------------------------------
E|----------------------------------



E|----------------------------------10------------------------------
B|--17--14----------------------14------11----------------------11--
G|----------14--------------14--------------10--------------10------
D|--------------14------14----------------------12------12----------
A|------------------16------------------------------13--------------
E|------------------------------------------------------------------



E|--17--12----------------------12--
B|----------13--------------13------
G|--------------14------14----------
D|------------------15--------------
A|----------------------------------
E|----------------------------------
http://www.guitartabcreator.com
Guitar Tab Creator is intended to store guitar tab created through the tool. It currently does not support in-line text editing. Any text you place in here will be lost. If you need to comment on your tab, please use the "Tab Notes" section located below.