solo for cool piano intro song

(/) Slide Up  (\) Slide Down  (h) Hammer On  (p) Pull Off  (b) Bend (r) Release (v) Vibrato


E|--13--12h13p12----------------------------------------17-------------17-------------19--19/20\14--
B|----------------13--12h13p12/17--17h18\15--13\12----------13\12----------13\12--------------------
G|--------------------------------------------------14-------------14-------------14----------------
D|--------------------------------------------------------------------------------------------------
A|--------------------------------------------------------------------------------------------------
E|--------------------------------------------------------------------------------------------------



E|--16/17---------
B|---------15-----
G|----------------
D|----------------
A|----------------
E|----------------



E|--8\7--------8\7--------8\7-----7--10p8p7------8\7--------10\8----------13p10------13/17b19--
B|-------8----------8----------8-------------10-------8-----------10-------------10------------
G|----------9----------9---------------------------------9------------10-----------------------
D|---------------------------------------------------------------------------------------------
A|---------------------------------------------------------------------------------------------
E|---------------------------------------------------------------------------------------------
http://www.guitartabcreator.com
Guitar Tab Creator is intended to store guitar tab created through the tool. It currently does not support in-line text editing. Any text you place in here will be lost. If you need to comment on your tab, please use the "Tab Notes" section located below.