soft sweet song

(/) Slide Up  (\) Slide Down  (h) Hammer On  (p) Pull Off  (b) Bend (r) Release (v) Vibrato

Stave 1:

E|------------------------------------------------------------------------------
B|------------------------------------------------------------------------------
G|------------------------------------------------------------------------------
D|--------0h2--------2h4--------4h5--4--4--5--2--------0h2--------2h4--4--4--0--
A|--0--0-------0--0-------0--0-------------------0--0-------0--0----------------
E|------------------------------------------------------------------------------

Stave 2:

E|--------------5-----------------------------------
B|--------3--------3-----3-----3-----------5--------
G|-----2-----2-----------------------0--------------
D|--0-----------------0-----4-----4-----2-----4--2--
A|--------------------------------------------------
E|--------------------------------------------------

Stave 3:

E|--------------------------------------------------
B|-----7-----------7-----------3-----------5--------
G|-----------7-----------7-----------4-----------6--
D|--------------------------------------------------
A|--5-----5-----5-----5-----2-----2-----4-----4-----
E|--------------------------------------------------

http://www.guitartabcreator.com
Guitar Tab Creator is intended to store guitar tab created through the tool. It currently does not support in-line text editing. Any text you place in here will be lost. If you need to comment on your tab, please use the "Tab Notes" section located below.