silent night

(/) Slide Up  (\) Slide Down  (h) Hammer On  (p) Pull Off  (b) Bend (r) Release (v) Vibrato

E|----------------------------------17--17--14--15--15--10--12--12--15--14--12--10--12--10--7--
B|--15--17--15--12--15--17--15--12-------------------------------------------------------------
G|---------------------------------------------------------------------------------------------
D|---------------------------------------------------------------------------------------------
A|---------------------------------------------------------------------------------------------
E|---------------------------------------------------------------------------------------------



E|--12--12--15--14--12--10--12--10--7--17--17--20--17--14--15--19--15--------------------------
B|---------------------------------------------------------------------15--12--15--13----------
G|-------------------------------------------------------------------------------------14--12--
D|---------------------------------------------------------------------------------------------
A|---------------------------------------------------------------------------------------------
E|---------------------------------------------------------------------------------------------
http://www.guitartabcreator.com
Guitar Tab Creator is intended to store guitar tab created through the tool. It currently does not support in-line text editing. Any text you place in here will be lost. If you need to comment on your tab, please use the "Tab Notes" section located below.