scream (2 strings)

(/) Slide Up  (\) Slide Down  (h) Hammer On  (p) Pull Off  (b) Bend (r) Release (v) Vibrato


E|--17--16--13------13--16--
B|--------------15----------
G|--------------------------
D|--------------------------
A|--------------------------
E|--------------------------



E|--17--16--12------12-----
B|--------------14---------
G|-------------------------
D|-------------------------
A|-------------------------
E|-------------------------



E|--18--17--13------13--
B|--------------15------
G|----------------------
D|----------------------
A|----------------------
E|----------------------
http://www.guitartabcreator.com
Guitar Tab Creator is intended to store guitar tab created through the tool. It currently does not support in-line text editing. Any text you place in here will be lost. If you need to comment on your tab, please use the "Tab Notes" section located below.