punkish song thing

(/) Slide Up  (\) Slide Down  (h) Hammer On  (p) Pull Off  (b) Bend (r) Release (v) Vibrato


E|--17--17--14----------------------------------14--17--9--12--7--------------------------------------
B|--------------15--------------------------15--------------------------------------------------------
G|------------------14------------------14-----------------------------------9----------9--11--12--9--
D|----------------------------------16----------------------------9--11--12-----12--12----------------
A|--------------------------12--17--------------------------------------------------------------------
E|----------------------14----------------------------------------------------------------------------



E|------------------------------14--12------12--14--15--14--12------
B|----------10--12--14--12--10----------15----------------------15--
G|--11--12----------------------------------------------------------
D|------------------------------------------------------------------
A|------------------------------------------------------------------
E|------------------------------------------------------------------
http://www.guitartabcreator.com
Guitar Tab Creator is intended to store guitar tab created through the tool. It currently does not support in-line text editing. Any text you place in here will be lost. If you need to comment on your tab, please use the "Tab Notes" section located below.