new song

(/) Slide Up  (\) Slide Down  (h) Hammer On  (p) Pull Off  (b) Bend (r) Release (v) Vibrato


E|--------------------------------------------------------------
B|--------------------------------------------------------------
G|--------------------------------------------------------------
D|--------------------------------10--11--10--8------8----------
A|-----------------10--11--10--8-----------------11-----11--10--
E|--8--10--11--10-----------------------------------------------



E|---------------------------------------------------
B|---------------------------------------------------
G|--------------------------------10--9--10--12--13--
D|--11--10--8------8--10--11--10---------------------
A|-------------11------------------------------------
E|---------------------------------------------------



E|--------------------------------------------------16--15--13------
B|----------------------------------16--15--13------------------15--
G|--13--12--13--15--16--15--13--12--------------16------------------
D|------------------------------------------------------------------
A|------------------------------------------------------------------
E|------------------------------------------------------------------



E|--18--16--15------20--18--16------1--3--4------------
B|--------------18--------------20-----------3--4------
G|-----------------------------------------------------
D|-----------------------------------------------------
A|-----------------------------------------------------
E|-----------------------------------------------------
http://www.guitartabcreator.com
Guitar Tab Creator is intended to store guitar tab created through the tool. It currently does not support in-line text editing. Any text you place in here will be lost. If you need to comment on your tab, please use the "Tab Notes" section located below.