lesson 4

(/) Slide Up  (\) Slide Down  (h) Hammer On  (p) Pull Off  (b) Bend (r) Release (v) Vibrato


E|-------------------7--12p7-------------------
B|---------------10-----------10---------------
G|------------9-------------------9------------
D|---------9-------------------------9---------
A|--7--12-------------------------------12--7--
E|---------------------------------------------



E|--------------------------------------------------
B|--------------------------------------------------
G|---------------7--11--12--11--7---------7---------
D|------------9--------------------9---------9------
A|--5--7--10--------------------------10--------10--
E|--------------------------------------------------



E|--13--10----------10---------------------------------------------------------------------------
B|----------12----------12----------12-----------------------------------------------------------
G|--------------13----------13--10------13--10------13--10---------10----------------------------
D|----------------------------------------------12----------12--9------12--9------12--9----------
A|----------------------------------------------------------------------------11---------11--12--
E|-----------------------------------------------------------------------------------------------



E|--------
B|--------
G|--------
D|--------
A|--------
E|--------
http://www.guitartabcreator.com
Guitar Tab Creator is intended to store guitar tab created through the tool. It currently does not support in-line text editing. Any text you place in here will be lost. If you need to comment on your tab, please use the "Tab Notes" section located below.