lesson 3a

(/) Slide Up  (\) Slide Down  (h) Hammer On  (p) Pull Off  (b) Bend (r) Release (v) Vibrato

E|------------------------------------------------------------------------------------------------
B|-----------------------------------------------------------------------------12--10--12--14-----
G|-----------------------------------------------13--9--11--13------------------------------------
D|-----------------11--9--11--13--------------------------------11--9--11--13---------------------
A|--------------------------------11--9--11--12---------------------------------------------------
E|--12--9--11--12---------------------------------------------------------------------------------



E|-----------------12--11--12--14--12--
B|-------------------------------------
G|--13--9--11--13----------------------
D|-------------------------------------
A|-------------------------------------
E|-------------------------------------
http://www.guitartabcreator.com
Guitar Tab Creator is intended to store guitar tab created through the tool. It currently does not support in-line text editing. Any text you place in here will be lost. If you need to comment on your tab, please use the "Tab Notes" section located below.