lesson 3

(/) Slide Up  (\) Slide Down  (h) Hammer On  (p) Pull Off  (b) Bend (r) Release (v) Vibrato

E|------------------------------------------------------------------------------12--11--12--14--12--
B|--------------------------------------------------------------12--10--12--14----------------------
G|-----------------------------------------------13--9--11--13--------------------------------------
D|--------------------------------11--9--11--13-----------------------------------------------------
A|-----------------11--9--11--12--------------------------------------------------------------------
E|--12--9--11--12-----------------------------------------------------------------------------------



E|-------------------5--9/12p9-----------------------
B|----------------5-------------10-------------------
G|-------------6--------------------9----------------
D|----------7--------------------------11------------
A|-----4h7---------------------------------12--7-----
E|--5---------------------------------------------9--



E|--14--12--11--12----------------------------------------------------------------------------------
B|------------------14--12--10--12------------------------------------------------------------------
G|----------------------------------13--11--9--13---------------------------------------------------
D|-------------------------------------------------13--11--9--11------------------------------------
A|----------------------------------------------------------------12--11--9--11---------------------
E|-------------------------------------------------------------------------------12--11--9--11--12--
http://www.guitartabcreator.com
Guitar Tab Creator is intended to store guitar tab created through the tool. It currently does not support in-line text editing. Any text you place in here will be lost. If you need to comment on your tab, please use the "Tab Notes" section located below.