lesson 2

(/) Slide Up  (\) Slide Down  (h) Hammer On  (p) Pull Off  (b) Bend (r) Release (v) Vibrato


E|--9--5-----------------5--11--7-------------------7--13--9----------------------9--15--12----------------------12------
B|-------------------------------------------------------------------------------------------------------------------15--
G|--------9--7--6--7--9------------11--9--8--9--11------------13--11--10--11--13-------------15--14--12--14--15----------
D|-----------------------------------------------------------------------------------------------------------------------
A|-----------------------------------------------------------------------------------------------------------------------
E|-----------------------------------------------------------------------------------------------------------------------



E|--12--8----------------------------4--7/12--8--------------------------------16--19\12--8--------------------------------13--16--17--
B|---------10---------------------5--------------10------------------------17----------------10------------------------15--------------
G|-------------9---------------4---------------------9-----------------16------------------------9-----------------14------------------
D|----------------10--------6---------------------------10---------18-------------------------------10---------15----------------------
A|--------------------12\7----------------------------------12/19---------------------------------------12/17--------------------------
E|-------------------------------------------------------------------------------------------------------------------------------------
http://www.guitartabcreator.com
Guitar Tab Creator is intended to store guitar tab created through the tool. It currently does not support in-line text editing. Any text you place in here will be lost. If you need to comment on your tab, please use the "Tab Notes" section located below.