lesson 1

(/) Slide Up  (\) Slide Down  (h) Hammer On  (p) Pull Off  (b) Bend (r) Release (v) Vibrato
E|--10--7-------------------7--12--8---------------------8--14--10----------------------10--15--
B|---------10--8--7--8--10------------12--10--8--10--12-------------13--12--10--12--13----------
G|----------------------------------------------------------------------------------------------
D|----------------------------------------------------------------------------------------------
A|----------------------------------------------------------------------------------------------
E|----------------------------------------------------------------------------------------------



E|--------5--8--5------------8--12--8--------------12--17--12---------
B|-----5-----------5-----10------------10------13--------------13-----
G|--5-----------------9--------------------14-------------------------
D|--------------------------------------------------------------------
A|--------------------------------------------------------------------
E|--------------------------------------------------------------------



E|--9--5-----------------5--
B|--------------------------
G|--------9--6-----6--9-----
D|--------------7-----------
A|--------------------------
E|--------------------------



E|--------------------------
B|--------------------------
G|--7--5--------9--7--------
D|--------7--5--------9--7--
A|--------------------------
E|--------------------------
http://www.guitartabcreator.com
Guitar Tab Creator is intended to store guitar tab created through the tool. It currently does not support in-line text editing. Any text you place in here will be lost. If you need to comment on your tab, please use the "Tab Notes" section located below.