?l

(/) Slide Up  (\) Slide Down  (h) Hammer On  (p) Pull Off  (b) Bend (r) Release (v) Vibrato


E|---------------
B|--9--7--9---5--
G|--9--9--11--6--
D|--9--9--11--7--
A|---------------
E|---------------



E|-----------------------------------------
B|-----------------------------------------
G|--2--1--2--1--2--1-----1--2--1-----------
D|--------------------4-----------1h2h4p2--
A|-----------------------------------------
E|-----------------------------------------
http://www.guitartabcreator.com
Guitar Tab Creator is intended to store guitar tab created through the tool. It currently does not support in-line text editing. Any text you place in here will be lost. If you need to comment on your tab, please use the "Tab Notes" section located below.