ill fly away

(/) Slide Up  (\) Slide Down  (h) Hammer On  (p) Pull Off  (b) Bend (r) Release (v) Vibrato


E|---------------------------------------------------
B|--12--------------12--12--12--13--12--10--8--5--3--
G|------12------12-----------------------------------
D|----------12---------------------------------------
A|---------------------------------------------------
E|---------------------------------------------------



E|-------------------------------------------------
B|--12--------------12--12--12--13--12--12--10--8--
G|------12------12---------------------------------
D|----------12-------------------------------------
A|-------------------------------------------------
E|-------------------------------------------------



E|--------------------------------------
B|--15--12--15--15--12--10--8--8--5--3--
G|--------------------------------------
D|--------------------------------------
A|--------------------------------------
E|--------------------------------------



E|-------------------------------------------------
B|--12--------------12--12--12--13--12--12--10--8--
G|------12------12---------------------------------
D|----------12-------------------------------------
A|-------------------------------------------------
E|-------------------------------------------------
http://www.guitartabcreator.com
Guitar Tab Creator is intended to store guitar tab created through the tool. It currently does not support in-line text editing. Any text you place in here will be lost. If you need to comment on your tab, please use the "Tab Notes" section located below.