if i asked you to stay youd go

(/) Slide Up  (\) Slide Down  (h) Hammer On  (p) Pull Off  (b) Bend (r) Release (v) Vibrato


E|--12\2/14\2/15--14h15p14--19--19p15p14-------------------------------------------------------------
B|----------------------------------------15--15/17\15b17-------------------------17------19---------
G|---------------------------------------------------------14b15----------16----------16------16-----
D|----------------------------------------------------------------17--17------17---------------------
A|---------------------------------------------------------------------------------------------------
E|---------------------------------------------------------------------------------------------------



E|---------------------17b19--17h19p17--20--20h21\12-----
B|--20------20--20p17------------------------------------
G|------16-----------------------------------------------
D|-------------------------------------------------------
A|-------------------------------------------------------
E|-------------------------------------------------------



E|--12h14p12--15--14--12h14p12--14--15--17--15--14--14h15p14--19--15-----------------------------
B|--------------------------------------------------------------------17--------------17---------
G|------------------------------------------------------------------------16------16------16/21--
D|----------------------------------------------------------------------------17-----------------
A|-----------------------------------------------------------------------------------------------
E|-----------------------------------------------------------------------------------------------
http://www.guitartabcreator.com
Guitar Tab Creator is intended to store guitar tab created through the tool. It currently does not support in-line text editing. Any text you place in here will be lost. If you need to comment on your tab, please use the "Tab Notes" section located below.