hard solo to play

(/) Slide Up  (\) Slide Down  (h) Hammer On  (p) Pull Off  (b) Bend (r) Release (v) Vibrato


E|--15--11------------------------------11--15--11------------------------------11--------------
B|----------13----------------------13--------------13----------------------13------------------
G|--------------12--------------12----------------------12--------------12----------13--13--12--
D|------------------13------13------------------------------13------13--------------------------
A|----------------------15--------------------------------------15------------------------------
E|----------------------------------------------------------------------------------------------



E|---------------------------------------------------------------13--15--13--------------------
B|-------------------------------------------13------13--15--16--------------16--15--13\8--13--
G|--12h13p12p10------12--------------12----------12--------------------------------------------
D|---------------10------13------13------13----------------------------------------------------
A|---------------------------15----------------------------------------------------------------
E|---------------------------------------------------------------------------------------------
http://www.guitartabcreator.com
Guitar Tab Creator is intended to store guitar tab created through the tool. It currently does not support in-line text editing. Any text you place in here will be lost. If you need to comment on your tab, please use the "Tab Notes" section located below.