epic

(/) Slide Up  (\) Slide Down  (h) Hammer On  (p) Pull Off  (b) Bend (r) Release (v) Vibrato


E|--------------------------------------------------
B|-----3--5--7--7--5--3--------3--------------------
G|--4--------------------4--4-----4--2--4--2-----2--
D|--------------------------------------------4-----
A|--------------------------------------------------
E|--------------------------------------------------



E|-------------9--9------------------------------------------
B|--9--10--12--------12--10--9--9--10--9----------9----------
G|----------------------------------------11--11-----11--10--
D|-----------------------------------------------------------
A|-----------------------------------------------------------
E|-----------------------------------------------------------



E|-------------9---------------------------------------------
B|--9--10--12-----9--10--12--9--9--10--12------9--10--12-----
G|-----------------------------------------11-------------9--
D|-----------------------------------------------------------
A|-----------------------------------------------------------
E|-----------------------------------------------------------



E|-----------------------------------------------------
B|-----3--5--7-----3--5--------3--5--------3--5--------
G|--4-----------4--------4--4--------2--4--------------
D|-----------------------------------------------4-----
A|-----------------------------------------------------
E|-----------------------------------------------------
http://www.guitartabcreator.com
Guitar Tab Creator is intended to store guitar tab created through the tool. It currently does not support in-line text editing. Any text you place in here will be lost. If you need to comment on your tab, please use the "Tab Notes" section located below.