drop D harmony

(/) Slide Up  (\) Slide Down  (h) Hammer On  (p) Pull Off  (b) Bend (r) Release (v) Vibrato


E|-----------------------------------------------------------------
B|-----------------------------------------------------------------
G|-----------------------------------------------------------------
D|--4--0--2--4--5--7--0-----------------2--0--2--4--5--4--5--4--0--
A|-----------------------5--4--5--7--9-----------------------------
E|-----------------------------------------------------------------



E|-----------------------------------------------------------------
B|-----------------------------------------------------------------
G|-----------------------------------------------------------------
D|--0--------------------------------------------------------------
A|-----2--4--5-----------2--------------4--2--4--------------------
E|--------------2--4--5-----0--4--5--7-----------2--4--2--4--2--0--
http://www.guitartabcreator.com
Guitar Tab Creator is intended to store guitar tab created through the tool. It currently does not support in-line text editing. Any text you place in here will be lost. If you need to comment on your tab, please use the "Tab Notes" section located below.