D major alt. picking exercises

(/) Slide Up  (\) Slide Down  (h) Hammer On  (p) Pull Off  (b) Bend (r) Release (v) Vibrato

E|------------------------------------------------------------------14--14--14--14--
B|--------------------------------------------------15--15--15--15------------------
G|----------------------------------14--14--14--14----------------------------------
D|------------------16--16--16--16--------------------------------------------------
A|--17--17--17--17------------------------------------------------------------------
E|----------------------------------------------------------------------------------



E|--17--17--17--17------------------------------------------------------------------------------
B|----------------------------------15--15--15--15----------------------------------------------
G|------------------14--14--14--14----------------------------------14--14--14--14--------------
D|--------------------------------------------------16--16--16--16----------------------16------
A|----------------------------------------------------------------------------------17------17--
E|----------------------------------------------------------------------------------------------



E|------------------------------14----------14--17------14--17--19-----
B|--------------15----------15----------15----------15-----------------
G|----------14----------14----------14---------------------------------
D|------16----------16-------------------------------------------------
A|--17-----------------------------------------------------------------
E|---------------------------------------------------------------------



E|--19--14--17------14----------------------------------
B|--------------15----------15--------------------------
G|----------------------14----------14------------------
D|------------------------------16----------16----------
A|--------------------------------------17------12--17--
E|------------------------------------------------------
http://www.guitartabcreator.com
Guitar Tab Creator is intended to store guitar tab created through the tool. It currently does not support in-line text editing. Any text you place in here will be lost. If you need to comment on your tab, please use the "Tab Notes" section located below.