chorus harmony

(/) Slide Up  (\) Slide Down  (h) Hammer On  (p) Pull Off  (b) Bend (r) Release (v) Vibrato


E|--------------------
B|--------------------
G|--------------------
D|--------------------
A|--------------------
E|--5--7--5--4--0--2--



E|--------------------
B|--------------------
G|--------------------
D|--------------------
A|--7--9--7--6--2--4--
E|--------------------



E|--------------------
B|--------------------
G|--------------------
D|--2--4--2--1--------
A|--------------2--4--
E|--------------------
http://www.guitartabcreator.com
Guitar Tab Creator is intended to store guitar tab created through the tool. It currently does not support in-line text editing. Any text you place in here will be lost. If you need to comment on your tab, please use the "Tab Notes" section located below.