awesome clean song

(/) Slide Up  (\) Slide Down  (h) Hammer On  (p) Pull Off  (b) Bend (r) Release (v) Vibrato


E|--------------15------13--12------12------13------12----------------------------------
B|------13----------------------------------------------15------15------17------15--13--
G|--12------12------12----------12------12------12----------12------12------12----------
D|--------------------------------------------------------------------------------------
A|--------------------------------------------------------------------------------------
E|--------------------------------------------------------------------------------------



E|-------------
B|--12--12h13--
G|-------------
D|-------------
A|-------------
E|-------------



E|----------------------------------------------------------------------------------------------
B|--12h13--------------13------12h13--------------13------12h13--------------13--13h15--13--12--
G|---------14------14------14------------------------------------14------14---------------------
D|-------------15---------------------14------14------14-------------15-------------------------
A|----------------------------------------15----------------------------------------------------
E|----------------------------------------------------------------------------------------------
http://www.guitartabcreator.com
Guitar Tab Creator is intended to store guitar tab created through the tool. It currently does not support in-line text editing. Any text you place in here will be lost. If you need to comment on your tab, please use the "Tab Notes" section located below.