5/4 time winner (2nd row drop D)

(/) Slide Up  (\) Slide Down  (h) Hammer On  (p) Pull Off  (b) Bend (r) Release (v) Vibrato


E|--------------------------------------------------------------
B|--------------------------------------------------------------
G|--------------------------------------------------------------
D|-----------------------------0--------0--2-----0--------2--3--
A|--2-----------2--3--------3-----------------------3-----------
E|-----0--1--0--------1--0--------3--0--------3--------0--------



E|--------------------------------------------------------------
B|--------------------------------------------------------------
G|--------------------------------------------------------------
D|--------------------------------------------------------2--3--
A|--2-----------2--3--------3--5--------5--7-----5--3-----------
E|-----2--3--2--------3--2--------5--2--------5--------2--------
http://www.guitartabcreator.com
Guitar Tab Creator is intended to store guitar tab created through the tool. It currently does not support in-line text editing. Any text you place in here will be lost. If you need to comment on your tab, please use the "Tab Notes" section located below.