5/4 time (3rd row is important) (1st 2 rows in drop D)

(/) Slide Up  (\) Slide Down  (h) Hammer On  (p) Pull Off  (b) Bend (r) Release (v) Vibrato

E|--------------------------------------------------------------------
B|--------------------------------------------------------------------
G|--------------------------------------------------------------------
D|--------------------------------------------------------------7--8--
A|--7--0-----0--7--8-----0--8--10------0--10--12------10--8--0--------
E|--------8-----------8------------10-------------10------------------



E|-----------------------------------------------------------------------------
B|-----------------------------------------------------------------------------
G|-----------------------------------------------------------------------------
D|---------------------------------------------------------------------14--15--
A|--14--7------7--14--15------7--15--17------7--17--19------17--15--7----------
E|---------15-------------15-------------17-------------17---------------------



E|--------------------------------------------------------------
B|--------------------------------------------------------------
G|--------------------------------------------------------------
D|--------------------------------------------------------2--3--
A|--2-----------2--3--------3--5--------5--7-----5--3-----------
E|-----0--1--0--------1--0--------3--0--------3--------0--------



E|----------------------------------------------------------------------------------
B|----------------------------------------------------------------------------------
G|----------------------------------------------------------------------------------
D|--------------------------------------------------------------------------14--15--
A|--14--------------14--15----------15--17----------17--19------17--15--------------
E|------12--13--12----------13--12----------15--12----------15----------12----------
http://www.guitartabcreator.com
Guitar Tab Creator is intended to store guitar tab created through the tool. It currently does not support in-line text editing. Any text you place in here will be lost. If you need to comment on your tab, please use the "Tab Notes" section located below.