1A sweep part 1

(/) Slide Up  (\) Slide Down  (h) Hammer On  (p) Pull Off  (b) Bend (r) Release (v) Vibrato


E|--16--13----------------------13--18------------------------------
B|----------14--------------14----------14----------------------14--
G|--------------13------13------------------15--------------15------
D|------------------15--------------------------15------15----------
A|--------------------------------------------------16--------------
E|------------------------------------------------------------------



E|--15--11----------------------11--12--9--------------------9--
B|----------13--------------13-------------10------------10-----
G|--------------12------12---------------------9------9---------
D|------------------13----------------------------11------------
A|--------------------------------------------------------------
E|--------------------------------------------------------------
http://www.guitartabcreator.com
Guitar Tab Creator is intended to store guitar tab created through the tool. It currently does not support in-line text editing. Any text you place in here will be lost. If you need to comment on your tab, please use the "Tab Notes" section located below.