???

(/) Slide Up  (\) Slide Down  (h) Hammer On  (p) Pull Off  (b) Bend (r) Release (v) Vibrato


E|-------------------------------
B|-------------------------------
G|-------------------------------
D|-------------------------------
A|--8p7-----10p8-----------------
E|-------7--------7--8--7--0--5--



E|--------------------------
B|--------------------------
G|--------------------------
D|--------------------------
A|--8p7-----10p8--7--8--10--
E|-------7------------------
http://www.guitartabcreator.com
Guitar Tab Creator is intended to store guitar tab created through the tool. It currently does not support in-line text editing. Any text you place in here will be lost. If you need to comment on your tab, please use the "Tab Notes" section located below.