holfwearts

(/) Slide Up  (\) Slide Down  (h) Hammer On  (p) Pull Off  (b) Bend (r) Release (v) Vibrato


E|---------------------
B|---------------------
G|---------------------
D|---------------------
A|--1------1-----3-----
E|------------3-----5--



E|-----------------------------------------------------------------------
B|-----------------------------------------------------------------------
G|-----------------------------------------------------------------------
D|--0--0--0--0--2--2--2--2--3--3--3--5--5--5--5--------------3-----5-----
A|--------------------------------------------------------------3-----5--
E|-----------------------------------------------1--1--1--1--------------



E|-------------------------------------------------------
B|-------------------------------------------------------
G|-------------------------------------------------------
D|-------------------------------------------------------
A|------------------5-----6-----5------------1-----3-----
E|--5--0--0------0-----0-----0-----0--0---------3-----5--



E|------------------
B|------------------
G|------------------
D|------------------
A|------------------
E|--0--3--5--8--10--



E|-----------------------------------------------
B|-----------------------------------------------
G|-----------------------------------------------
D|-----------------------------------------------
A|-----3--5--------------------3--5--------------
E|--0--------0--3--6--5--3--0--------0--3--6--5--
http://www.guitartabcreator.com
Guitar Tab Creator is intended to store guitar tab created through the tool. It currently does not support in-line text editing. Any text you place in here will be lost. If you need to comment on your tab, please use the "Tab Notes" section located below.