tune 1

(/) Slide Up  (\) Slide Down  (h) Hammer On  (p) Pull Off  (b) Bend (r) Release (v) Vibrato

E|---------------------------------------------------
B|---------------------------------------------------
G|---------------------------------------------------
D|---------------------------------------------------
A|--------------------------9--0---------------------
E|--0--0--12--0--10--12--0--------12--0--10--12--10--



E|--------------------------------------------------------
B|--------------------------------------------------------
G|--------------------------------------------------------
D|--------------------------------------------------------
A|--------------------------9--10--12--10--9--10----------
E|--0--0--12--0--10--12--0------------------------12--10--



E|-----------------------------------------------------------------------------
B|-----------------------------------------------------------------------------
G|-----------------------------------------------------------------------7-----
D|-----------------------------------------------9--0--------------------------
A|----------------------12--0--------------------------------------------------
E|--0--0--12--0--10--0---------12--0--10--12--0--------12--0--10--12--0--------



E|--------------------------------------
B|--------------------------------------
G|--------------------------------------
D|--0--12--10--9--10--0--5--3--0--5--7--
A|--0--12--10--9--10--0--5--3--0--3--5--
E|--0--12--10--9--10--0--5--3--0--------
http://www.guitartabcreator.com
Guitar Tab Creator is intended to store guitar tab created through the tool. It currently does not support in-line text editing. Any text you place in here will be lost. If you need to comment on your tab, please use the "Tab Notes" section located below.