Tim Demo #2

(/) Slide Up  (\) Slide Down  (h) Hammer On  (p) Pull Off  (b) Bend (r) Release (v) Vibrato
E|--12---------|--
B|--15--15b17--|--
G|-------------|--
D|-------------|--
A|-------------|--
E|-------------|--



E|------------------------------------------|---------------------------------------
B|--3---------------------------------------|--3--3--3--3---------------------------
G|--2---------------------------------------|--2--2--2--2---------------------------
D|--0--2-----2------------------------------|--0--0--0--0--2--2--2--2--2------------
A|-----0-----2--2---------------------------|--------------0--0--0--0--0------------
E|--------3--0--0--3p0--0--5--0--3p0--0--0--|-----------------------------3p0h3-----



E|-----------------------------------------------|--
B|--------8--8--------------------8--------------|--
G|--------7--7--------------------7--------------|--
D|--------6--5--5-----5-----------6-----7-----8--|--
A|--------7--7-----7-----7--------7--------------|--
E|--0--0--------------------0--0-----5-----6-----|--



E|--------------------------------------------------------------
B|--------------------------------------------------------------
G|--------------------------------------------------------------
D|--2--2--2--2--2--2--2--2----------2--2--2--2--2---------------
A|--0--0--0--0--0--0--0--0--3p0-----0--0--0--0--0---------------
E|-------------------------------3-----------------3p0--3p0--2--



E|-----------------------
B|-----------------------
G|--8--8--8--8--8--7--6--
D|-----------------------
A|--9--9--9--9--9--8--7--
E|--7--7--7--7--7--6--5--



E|-------------------------|-----------------------------------------------|--
B|-----------3-------------|--------------3--3--3--------------3--3--3-----|--
G|--------2--2-------------|--------------2--2--2--------------2--2--2--4--|--
D|--2-----2--0--2-------2--|--2-----2-----0--0--0--2-----2-----0--0--0--4--|--
A|--2-----0-----0-------2--|--0--2--0--2-----------0--2--0--2-----------2--|--
E|--0--3-----------3p0--0--|-----0-----0--------------0-----0--------------|--



E|--3--
B|--3--
G|--1--
D|--2--
A|--2--
E|--0--
http://www.guitartabcreator.com
Guitar Tab Creator is intended to store guitar tab created through the tool. It currently does not support in-line text editing. Any text you place in here will be lost. If you need to comment on your tab, please use the "Tab Notes" section located below.