Tim Demo #2

(/) Slide Up  (\) Slide Down  (h) Hammer On  (p) Pull Off  (b) Bend (r) Release (v) Vibrato


E|--12---------|--
B|--15--15b17--|--
G|-------------|--
D|-------------|--
A|-------------|--
E|-------------|--



E|------------------------------------------|---------------------------------------
B|--3---------------------------------------|--3--3--3--3---------------------------
G|--2---------------------------------------|--2--2--2--2---------------------------
D|--0--2-----2------------------------------|--0--0--0--0--2--2--2--2--2------------
A|-----0-----2--2---------------------------|--------------0--0--0--0--0------------
E|--------3--0--0--3p0--0--5--0--3p0--0--0--|-----------------------------3p0h3-----
http://www.guitartabcreator.com
Guitar Tab Creator is intended to store guitar tab created through the tool. It currently does not support in-line text editing. Any text you place in here will be lost. If you need to comment on your tab, please use the "Tab Notes" section located below.