Tim Demo

(/) Slide Up  (\) Slide Down  (h) Hammer On  (p) Pull Off  (b) Bend (r) Release (v) Vibrato


E|---------------------------------------------------
B|---------------------------------------------------
G|---------------------------------------------------
D|-----------------------------------5-----7b8b7--5--
A|--------5h7--------5h7--------5h7-----7------------
E|--0--0-------0--0-------0--0-----------------------



E|--------------------------------------------------
B|--------------------------------------------------
G|--------------------------------------------------
D|--------------------------------------------------
A|--7--7--5h7--7--7--7--5h7--7--7--7--5h7-----------(slightly palm muted)
E|-----------------------------------------3--4--5--



E|--------------------------------------------------------then play this as the tail of the 4th time
B|--------------------------------------------------------
G|--------------------------------------------------------
D|--------------------------------------------------------
A|--7--7--5--7--7--7--7--5--7--7--7--7--5--7--5--6--7- -5--4--3--
E|--0--0--0--0--0--0--0--0--0--0--0--0--0--0--3--4--5- (x3) -3--2--1--
http://www.guitartabcreator.com
Guitar Tab Creator is intended to store guitar tab created through the tool. It currently does not support in-line text editing. Any text you place in here will be lost. If you need to comment on your tab, please use the "Tab Notes" section located below.