Angel Solo

(/) Slide Up  (\) Slide Down  (h) Hammer On  (p) Pull Off  (b) Bend (r) Release (v) Vibrato


E|-----------------5--------------------5--------8--10--12--13b10h12------------------
B|--8b10--5br---5br---8b10--6--6--5--3-----8--5-----------------------13--10----------
G|-----------7----------------------------------------------------------------9brbr---
D|------------------------------------------------------------------------------------
A|------------------------------------------------------------------------------------
E|------------------------------------------------------------------------------------



E|-------------------------------------------------------
B|-------------------------------------------------------
G|--7----------------------------------------------------
D|-----7--5--7--14--12--14--12---------------------------
A|------------------------------14--12--14---------------
E|------------------------------------------12--15--12v--
http://www.guitartabcreator.com
Guitar Tab Creator is intended to store guitar tab created through the tool. It currently does not support in-line text editing. Any text you place in here will be lost. If you need to comment on your tab, please use the "Tab Notes" section located below.